Temas Variados / Resumen NIA 200

Resumen NIA 200

Ensayos y Trabajos: Resumen NIA 200
Ensayos de Calidad, Tareas, Monografias - busque más de 2.101.000+ documentos.

Enviado por:  Dimitri87  27 junio 2013
Tags: 
Palabras: 1215   |   Páginas: 5
Views: 99

CORDES

Bm G D A Em

e----2----3----2----0----0----| NOTA: Lleva capo en el primer traste,

B----3----0----3----2----0----| aunque pueden tocarlo sin capo de

G----4----0----2----2----0----| todos modos suena bien.

D----4----0----0----2----2----|

A----2----2----X----0----2----|

E----X----3----X----X----0----|

INTRO:

Bm G D A

e|------------|----------|------0---|------------|

B|-------2----|----------|--------3-|-------0----|

G|---------4--|-----3h0--|----2-----|---------2--|

D|-----4------|---0------|--0-------|-----2------|

A|---2--------|----------|----------|---0--------|

E|------------|-3--------|----------|------------|

Bm G D A

e|------------|----------|------0---|-----------0--|

B|-------2----|----------|----------|-------0------|

G|---------4--|-----3h0--|----2---3-|---------2----|

D|-----4------|---0------|--0-------|-----2--------|

A|---2--------|----------|----------|---0----------|

E|------------|-3--------|----------|--------------|

_______________________________________________________

D G

e|-----0---------0---|-------------------|

B|-------------------|-------------------|

G|---2---3-----2---3-|-----3h0------3h0--|

D|-0---------0-------|---0--------0------|

A|-------------------|-------------------|

E|-------------------|-3--------3--------|

Sabes no pido nada más que estar entre tus

D G Bm

e|-----0---|------------|------------------------|

B|---------|------------|--------2---------2-----|

G|---2---3-|-------3h0--|----------4---------4---|

D|-0-------|-----0------|------4---------4-------|

A|---------|------------|----2---------2---------|

E|---------|---3--------|------------------------|

brazos y huir de todo el mal q`ah todo e renunciado

Em D D A

e|------------|-------0----|-----0----|------------|

B

|--------0---|------------|----------|----2-------|

G|----------0-|-----2---3--|---2---3--|----2-------|

D|------2-----|---0--------|-0--------|----2-------|

A|------------|------------|----------|----0-------|

E|----0-------|------------|----------|------------|

por estar junto a ti...

________________________________________________________

D G

Sabes no dejo de pensar

D

que estoy enamorado

G

te quiero confesar

Bm Em D

que soy solo un esclavo

A

que no sabe vivir sin ti

CORO

Bm G D

Cuando llegaste tú

A Bm

te metiste en mi ser

G D

Encendiste la luz

A Em

me llenaste de fe

G

tanto tiempo busque

Em

pero al fin te encontré

D A

tan perfecta como te imagine nou nouoouuoo

Bm G D

Como aguja en un pajar

A Bm

te busq ...



Suscríbase a ClubEnsayos

Suscríbase a ClubEnsayos - busque más de 2.101.000+ documentos